TIMBERO TOP
TEMPORADA

mery
METODOS por
PEPECACARULO

LOS FOROS DE RUTA1000.COM.AR
TIMBERO TOP
DE LA SEMANA

pitufin
IR A METODOS IDENTIFICARSE
Sorteosdatos cantadosLibro De MensajesQuiniela para todos
| Mensaje Más Nuevo MENSAJE MÁS NUEVO | Página siguiente PÁGINA SIGUIENTE | PÁGINA ANTERIOR Página Anterior | MENSAJE INICIAL
PERFIL - ENVIAR MENSAJE
NANDO de BARRIO NORTE
[ RESPONDER ]
6 de Ene. 2012 11:40 pm 

EXCELENTE DATOS BUEN FINDE  
PERFIL - ENVIAR MENSAJE
sebastian183 de El infierno SUSPENDIDO
[ RESPONDER ]
4 de Ene. 2012 9:39 pm 
PERFIL - ENVIAR MENSAJE
ela
[ RESPONDER ]
2 de Dec. 2011 10:08 pm 

qué fenómeno, repitieron 2!!
PERFIL - ENVIAR MENSAJE
ela
[ RESPONDER ]
1 de Dec. 2011 2:43 pm 

Hola sebas!!

claro!!
por ejm.
95-71 directo e indirecto  nº afin=04
PERFIL - ENVIAR MENSAJE
sebastian183 de El infierno SUSPENDIDO
[ RESPONDER ]
30 de Nov. 2011 3:16 pm 

Excelente las tablas pepe.
¿Estas son las llamadas martingalas?
Saludos y suerte
PERFIL - ENVIAR MENSAJE
perlita de ituzaingo
[ RESPONDER ]
29 de Dec. 2010 2:08 pm 

hoolaaa pepecacarulo!!!

muchos exitosss para hoyyy !!!
PERFIL - ENVIAR MENSAJE
ela
[ RESPONDER ]
11 de Sep. 2010 10:08 am 

Buen día, pepin!!

Gracias por la explicación, nadie mejor que vos para llevarla adelante, como siempre digo es hasta que los estudiey me familiarice con los nº me va a llevar un tiempito..

control

0=  00-10-20-40-70
1= 11r-51-61r  41r 71r ( 21)
2= 02-42r
3= 73r-33r-13-93r-03
4= (04r)-64r-84-(44r)-24r
5= 55-95r
6= 06-86-56-96
7= 57-27r-17-37r 67-(97)
8= 48r
9= 39r-19-99-79r-59r-49r-29r

si partimos desde nct.

38= 27-33-03-(04)-56-96-40-(97)-88-79
73= 33-79-54-29-11-02-09-(44)-70-39

nos quedaría  cómo más fuerte 33-79

más chiquita …( con coincidencias)

79
33-93-59-48

muy buen trabajo, FELICITACIONES!!

Buen finde, nos seguimos leyendo...

ÉXITOS!!

cariños-ela




PERFIL - ENVIAR MENSAJE
pepecacarulo de capital federal
[ RESPONDER ]
10 de Sep. 2010 7:10 pm 

ok, los voy a dejar el el post LA TABLITA DE PEPE
PERFIL - ENVIAR MENSAJE
anili
[ RESPONDER ]
10 de Sep. 2010 7:07 pm 

pepe la verdad recien veo lo q posteas esta re bueno porq se te puede seguir jugando tranqui bueno hoy ya es tarde,pro el lunes te re sigo ...perdon pero me encanto y lo queria decir
PERFIL - ENVIAR MENSAJE
pepecacarulo de capital federal
[ RESPONDER ]
10 de Sep. 2010 5:46 pm 

el resumen de posibles ambos quedaria:
33
59
79
04
64
44
27
37
29
03

PERFIL - ENVIAR MENSAJE
pepecacarulo de capital federal
[ RESPONDER ]
10 de Sep. 2010 12:03 pm 

Ela no te olvides de considerar los de provincia también. Si combinas todas las cabezas del dia anterior
63
95
94
38
68
94
67
73

el resumen de posibles ambos quedaria:
33
59
79
04
64
44
27
37
29
03

De ahí en adelante reducír según criterios propios o bien jugás los 10 ambos
PERFIL - ENVIAR MENSAJE
ela
[ RESPONDER ]
10 de Sep. 2010 11:10 am 

otra idea abordarla desde el repetido del día, vale decir del 94

94= 64-67-93-48-59-49-41-71-42-24

y nos quedaría como más fuertes 93-48-59

y si partimos desde nct.

38= 27-33-03-04-56-96-40-97-88-79
73= 33-79-54-29-11-02-09-44-70-39

nos quedaría  cómo más fuerte 33-79

fijense que coincidencia… en la reducción de 5 ambos con las consideraciones del repetido del día, obvio que va arrojar ambos,  y la consideración de noct.

bueno, resta ver que es lo que pasa…

Se aceptan  nuevas ideas!!

puesto en marcha… a prueba

Infinitas GRACIAS,PEPIN!!

Nos seguimos leyendo…

ÉXITOS!!

Cariños-ela


PERFIL - ENVIAR MENSAJE
ela
[ RESPONDER ]
10 de Sep. 2010 11:08 am 

cont.

y más chiquita …

79
33-93-59-48


lo que logramos fue...

sobre un total de 80nº  que nos da por la tabla reducimos

1º a 43nº
2º a 20nº
y por último a 5 nº

PERFIL - ENVIAR MENSAJE
ela
[ RESPONDER ]
10 de Sep. 2010 11:06 am 

Buen día!!

Buenísimo pepin!! Ahora mismo le damos curso a modo de prueba para ver como podemos ir abordándolas..

teniendo en cuenta siempre tu referencia y alguna idea que se me ocurre (jaja)

Algunas ideas que se me ocurren

Podemos considerar tomando por separado  los sorteos ( prim-mat-vesp-noct)

Prim.
63= 55- 39- 04- 00-64- 57-  06- 73- 84- 19
68= 33- 99- 44-13-11-  51- 79- 59- 20- 61

mat.

95= 73-93-95-23-10-61-27-04-17-37
94= 64-67-93-48-59-49-41-71-42-24

vesp.

94= 64-67-93-48-59-49-41-71-42-24
67= 80-37-48-95-94-21-29-16-79-86

noct.
38= 27-33-03-04-56-96-40-97-88-79
73= 33-79-54-29-11-02-09-44-70-39

nos quedaría...

0=  00-10-20-40-70
1= 11r-51-61r  41r 71r  21
2= 02-42r
3= 73r-33r-13-93r-03
4= 04r-64r-84-44r-24r
5= 55-95r
6= 06-86-56-96
7= 57-27r-17-37r 67-97
8= 48r
9= 39r-19-99-79r-59r-49r-29r


luego podemos seguir reduciéndola(r con los que repiten en cada serie)

11-61-41-71
42-73-33-93
04-64-44-24
95-27-37-48
39-79-59-49


PERFIL - ENVIAR MENSAJE
pepecacarulo de capital federal
[ RESPONDER ]
9 de Sep. 2010 6:14 pm 

Ela
Aqui te dejo esta tabla estadística PARA NACIONAL Y PROVINCIA juntas
Son el resumen de los últimos 9 años
Son los ambos que más salieron después de un determinado número dentro del dia siguiente. Por ejemplo si hoy sale en anguno de los sorteos el 00, me fijo en la tabla y elijo alguno de los ambos "simpáticos" al 00 y los juego al dia siguiente.
Son válidos solamente para los 4 sorteos del dia siguiente.

00---->22--32--99--33--43--75--83--93--11--29
01---->64--63--77--59--75--17--25--78--21--70
02---->74--33--19--32--59--27--80--08--03--23
03---->67--39--77--08--76--73--69--06--36--28
04---->25--73--67--33--35--96--94--09--44--43
05---->33--54--40--62--91--01--32--11--25--71
06---->83--35--44--24--64--60--09--59--31--57
07---->74--93--72--06--73--03--29--66--62--59
08---->07--82--58--17--21--52--27--51--20--33
09---->04--57--21--51--19--41--37--36--92--95
10---->22--73--02--04--51--50--68--64--41--42
11---->05--73--02--27--61--65--28--47--11--04
12---->16--61--95--06--04--07--52--12--70--42
13---->93--00--12--47--80--83--33--13--02--65
14---->47--05--54--40--07--56--42--64--86--68
15---->26--96--13--16--83--57--22--29--79--71
16---->63--10--42--86--47--49--26--22--12--36
17---->00--33--14--51--95--16--62--54--50--70
18---->21--36--80--11--03--53--66--16--19--49
19---->63--59--45--27--26--15--35--88--22--82
20---->33--16--11--51--42--93--53--29--96--40
21---->55--56--09--59--64--84--63--33--53--47
22---->59--37--99--63--47--16--66--93--34--25
23---->37--66--41--96--95--55--63--11--26--42
24---->32--47--09--86--99--13--50--35--10--70
25---->33--10--25--29--51--99--17--41--23--55
26---->96--42--44--95--09--35--57--34--13--71
27---->67--48--03--30--17--46--87--63--23--33
28---->78--40--04--05--22--83--69--91--03--20
29---->41--03--29--27--96--18--35--33--74--04
30---->33--92--74--30--19--47--90--80--66--75
31---->33--73--81--65--72--19--48--35--17--79
32---->59--95--23--91--22--51--40--02--56--97
33---->27--93--96--64--33--42--07--88--80--04
34---->89--63--61--33--42--37--28--99--50--54
35---->39--07--50--95--37--47--70--30--64--94
36---->92--13--72--19--25--03--22--99--76--41
37---->61--79--14--42--23--17--04--93--72--99
38---->27--33--03--04--56--96--40--97--88--79
39---->25--02--70--42--79--28--74--62--39--88
40---->02--99--50--91--77--55--59--57--01--19
41---->78--63--64--80--92--65--67--33--83--23
42---->47--03--74--37--50--23--48--27--42--43
43---->06--83--47--03--79--94--57--10--04--91
44---->64--88--65--29--43--93--44--92--22--40
45---->93--33--86--23--82--65--78--73--46--41
46---->44--63--85--01--77--03--06--61--75--53
47---->33--59--23--67--82--41--30--06--91--99
48---->95--51--71--31--27--40--29--05--43--25
49---->70--80--33--13--95--64--19--18--05--56
50---->42--57--50--04--39--18--34--06--67--26
51---->08--22--65--96--33--10--04--69--48--92
52---->20--30--63--77--02--78--83--41--56--08
53---->29--74--88--84--70--02--24--10--95--39
54---->34--29--91--14--03--28--46--88--55--25
55---->25--33--08--03--70--05--22--24--92--02
56---->48--80--05--73--47--88--16--51--22--09
57---->57--05--54--11--26--28--83--56--25--19
58---->63--01--42--11--83--40--77--54--19--93
59---->56--12--79--09--67--06--07--52--21--47
60---->17--33--71--45--61--63--50--81--73--57
61---->28--02--03--70--33--71--32--76--04--35
62---->17--78--62--55--84--19--51--48--14--20
63---->55--39--04--00--64--57--06--73--84--19
64---->50--47--10--04--16--42--19--12--91--06
65---->13--11--54--19--16--99--79--25--93--86
66---->13--22--96--79--72--05--73--43--62--19
67---->80--37--48--95--94--21--29--16--79--86
68---->33--99--44--13--11--51--79--59--20--61
69---->47--92--67--45--22--33--99--29--07--43
70---->00--79--23--91--98--68--21--75--61--49
71---->34--75--65--09--33--94--06--96--95--20
72---->33--29--79--11--06--02--96--51--19--07
73---->33--79--54--29--11--02--09--44--70--39
74---->62--70--27--94--35--48--91--28--16--05
75---->59--93--09--75--17--81--03--66--05--06
76---->72--84--14--06--02--18--42--01--29--34
77---->16--97--07--33--08--44--24--41--58--66
78---->63--50--37--78--62--59--11--96--03--99
79---->69--93--94--26--00--41--06--76--11--42
80---->63--40--17--55--31--00--99--25--94--42
81---->65--79--02--94--96--21--27--63--58--34
82---->78--03--47--19--77--63--07--93--33--72
83---->04--22--47--91--44--83--95--82--93--02
84---->00--57--77--67--65--02--56--54--76--80
85---->00--47--71--17--40--12--10--02--11--20
86---->02--71--12--68--33--10--94--85--83--47
87---->33--93--25--41--26--75--56--54--74--94
88---->13--36--04--02--62--53--54--67--99--95
89---->16--38--77--42--70--72--96--11--76--04
90---->47--16--31--29--02--14--08--53--18--45
91---->73--25--70--22--66--33--26--41--40--50
92---->00--57--99--47--17--02--95--41--64--63
93---->70--66--23--10--18--54--20--14--79--01
94---->64--67--93--48--59--49--41--71--42--24
95---->73--93--95--23--10--61--27--04--17--37
96---->93--53--99--08--77--33--67--25--87--84
97---->65--66--27--46--10--70--29--75--44--34
98---->70--92--47--56--19--23--16--29--66--85
99---->07--56--02--58--99--16--25--33--64--68

PERFIL - ENVIAR MENSAJE
pimpollo25 de ENTRE RIOS
[ RESPONDER ]
6 de Sep. 2010 11:08 pm 

GRACIAAS ELA BUENISIMO TU APORTE LO SIGO CONTROLANDO.
OK.
PERFIL - ENVIAR MENSAJE
ela
[ RESPONDER ]
6 de Sep. 2010 11:04 pm 

Hola!!
permiso, pepin

a pedido recupero el post

Les dejo está tablita de números simpáticos que me envió un forista. Tal vez a alguno les interese. En lo personal nunca la cheque

00---->81---26---95-606-131-88-10
01---->17---17---11-611-137-46
02---->33---36---724-002-602-267-33
03---->16---16---388-44-216-10
04---->95---30---469-373-40
05---->17---21---56-130-701-44
06---->37---33---941-619-165-61
07---->01---17---535-672-092-72
08---->58---36---432-942-71-008
09---->53---17---469-366-99-853
10---->30---20---44-944-589-05-403-11
11---->65---16---606-666-810-100-10
12---->73---94---952-941-226-20-83
13---->78---92---718-781-34-895-99
14---->30---22---83-466-483-961
15---->88---22---21-442-983-388-42
16---->29---95---571-232-93-92
17---->31---32---16-255-230-565
18---->63---22---251-674-79-278-18-123
19---->48---27---100-542-06-80-919-10-813
20---->74---98---920-025-234-30-62-211
21---->28---17---474-292-616-50-324
22---->07---96---08-199-050-339-223
23---->64---99---983-515-10-348-060-715
24---->14---98---535-841-748-72-101
25---->49---37---052-535-820-692
26---->36---42---952-012-920-52-998-130
27---->17---52---765-757-232-39-219
28---->94---27---92-299-992-29-611-812
29---->32---94---333-866-135-31-219-839
30---->96---19---230-65-821-251-553
31---->42---22---520-911-44-137-33-919
32---->19---21---08-942-188-585-46
33---->71---58---332-542-100-19-31
34---->60---71---712-25-720-72-992-072
35---->82---80---10-365-945-411
36---->70---94---180-373-486-39
37---->63---53---349-61-329-588
38---->51---60---622-872-313-649-446
39---->77---71---650-747-456-199
40---->61---82---446-637-407-747-284
41---->11---61---00-184-157-815
42---->67---92---745-369-713-327-25-05
43---->62---65---88-396-43-871
44---->76---70---33-05-140-12-812-661
45---->08---36---43-39-702-749-615-13
46---->63---21---86-468-429-333
47---->37---73---327-35-65-615-706
48---->33---63---977-158-754-02-030
49---->91---47---129-028-459-633
50---->03---47---01-254-757-008
51---->30---50---157-05-815-810
52---->36---78---152-679-778-13-753-55
53---->92---51---52-120-343-654-128
54---->27---13---51-311-866-78
55---->99---28---33-645-493-941
56---->52---30---604-872-86-44
57---->22---77---291-005-262-96-41
58---->80---35---803-115-271-22
59---->71---56---160-222-197-762
60---->61---88---551-59-612-716
61---->36---40---630-883-898-313
62---->47---85---896-477-05-722
63---->13---86---219-850-071-93
64---->35---29---231-445-896-70
65---->85---11---03-445-896-70
66---->61---61---289-534-223-484-04
67---->04---89---342-577-484-071
68---->03---01---886-55-981
69---->10---31---511-391-789-55
70---->77---67---404-280-344-854
71---->00---04---612-372-10-668-32
72---->47---09---086-738-18
73---->23---62---77-431-220-779-915-93-73
74---->15---03---053-58-878-94-18-147
75---->17---67---99-034-06-513-839-29-31
76---->21---48---72-008-39-523-54-357-66
77---->20---76---585-58-642-542-06-73
78---->22---55---406-235-39-502-310-73
79---->98---75---915-693-73-09-368-600
80---->98---08---35-809-44-175-753-80
81---->27---77---480-386-955-50-30-151
82---->21---05---091-349-713-15-86
83---->64---28---61-503-314-200-705-868-22
84---->82---63---814-50-70-340-09-141
85---->92---00---45-343-13-11-809
86---->21---57---68-085-37-288-524
87---->50---07---78-580-817-697-35
88---->28---37---147-15-465-539
89---->56---47---366-73-25-030
90---->86---43---32-898-674-353-02
91---->01---64---349-129-19-91
92---->09---33---440-446-286-69-92
93---->67---23---261-314-43-90
94---->94---18---74-18-23-170-505
95---->55---14---582-94-179-336-420
96---->05---91---76-121-716-69
97---->57---72---04-198-179-532
98---->43---83---133-352-403-09
99---->18---15---11-04-86-189


Gracias!!

cariños-ela
PERFIL - ENVIAR MENSAJE
pimpollo25 de ENTRE RIOS
[ RESPONDER ]
10 de Mar. 2010 6:24 pm 

02===>33--57--19--30--92--64--25--22--63--71--
31===>73--65--30--41--12--96--05--93--33--81--

estos son los de matutina y vespertina yo tengo puestas mis fichas en 30-33-, coincidencia se repiten en los dos, pepe si me sirve y mas viniendo de alguien que sabe mucho de estadisticas, yo aprendo siempre, como dice ela seguimos.....
PERFIL - ENVIAR MENSAJE
pepecacarulo de capital federal
[ RESPONDER ]
10 de Mar. 2010 4:36 pm 

Me alegro que te sirva
PERFIL - ENVIAR MENSAJE
pimpollo25 de ENTRE RIOS
[ RESPONDER ]
10 de Mar. 2010 2:48 pm 


90<43--(02)

--84--22--51--96--47--14--93--85--

Nacional - Matutino
1. 0302

PERFIL - ENVIAR MENSAJE
pimpollo25 de ENTRE RIOS
[ RESPONDER ]
9 de Mar. 2010 10:18 pm 

22<.59--45--16--11--27--28--25--51--66--76--
70<.96--25--68--75--10--93--07--59--(19)--91--
18< 39--02--29--38--36--(19)--42--23--21--80--
19<25--61--38--19--53--66--11--47--59--(90)--


Nacional - La Primera
1. 8322
Nacional - Matutino
1. 6170
Nacional - Vespertino
1. 3818
Nacional - Nocturna
1. 7719


09/03

Nacional - La Primera
1. 5287
Nacional - Matutino
1. 6549
Nacional - Vespertino
1. 6015
Nacional - Nocturna
1. 7490
87<87===>93--73--61--(15)--53--11--71--67--42--59--
49<49===>53--(90)--56--35--62--70--79--75--18--58--
15<26--57--52--29--82--81--00--74--18--28--

90<43--02--84--22--51--96--47--14--93--85--
PERFIL - ENVIAR MENSAJE
pimpollo25 de ENTRE RIOS
[ RESPONDER ]
24 de Feb. 2010 11:51 am 

CONTROL DESDE LA SEMANA DEL 22 DE FERBRERO

SALIO 58 EN PRIMERA.

58===>42--11--05--30--47--41--83--63--73--55

NACIONAL VESPERTINA EL 11.



PERFIL - ENVIAR MENSAJE
pimpollo25 de ENTRE RIOS
[ RESPONDER ]
19 de Feb. 2010 7:10 pm 

pepe fui controlando los sorteos de nacional desde el 15 de febrero
salio el 12 en primera

12===>96--02--07--16--95--59--25--44--30--51--

el 16 de febrero  salio el 25 y el 44.

el 17 de febrero  el 25

el 19 de febrero hasta ahora el 59

muy buena tabla a tenerla en cuenta para empezar a controlar desde la primera del dia lunes,
gracias pepe por la tablita.
PERFIL - ENVIAR MENSAJE
ariadnna
[ RESPONDER ]
19 de Feb. 2010 12:21 am 

Hola Ela, cual es esa tablita? no la encuentro...

Besos y a domani!
PERFIL - ENVIAR MENSAJE
ela
[ RESPONDER ]
18 de Feb. 2010 12:54 pm 
 
| Mensaje Más Nuevo MENSAJE MÁS NUEVO | Página siguiente PÁGINA SIGUIENTE | PÁGINA ANTERIOR Página Anterior | MENSAJE INICIAL
TEMA
<< Ant. Sig. >>
Múltiples páginas de este tema



© Ruta1000.com.ar | Nuestra política de privacidad

Powered by Ikonboard 2.1.9 Beta
© 2001 Ikonboard.com